**********************************
* Gold : Plus près des étoiles *
**********************************

time = 4/4, tempo = 116, resolution (-) = 8th note
settings suggestion :
    pickup = 50% neck / 50% bridge
    EQ = 50% bass / 50% mid / 50% treble

Intro :
G|--------|
D|--------|
A|--------|
E|--------|

Verse :
G|--------|--------|--------|--------|--------|--------|--------|--------|
D|--------|--------|--------|--------|--------|--------|--------|--------|
A|55555555|55555555|55555555|5555555-|22222222|22222222|22222222|2222222-|
E|--------|--------|--------|--------|--------|--------|--------|--------|

G|--------|--------|--------|--------|--------|--------|--------|--------|
D|--------|--------|--------|--------|--------|--------|--------|--------|
A|55555555|55555555|55555555|5555555-|22222222|22222222|22222222|22222---|
E|--------|--------|--------|--------|--------|--------|--------|-----02-|

Chorus :
G|--------|--------|--------|--------|--------|--------|--------|--------|
D|--------|--------|--------|--------|--------|--------|--------|--------|
A|--------|--------|2222222-|--------|--------|--------|--------|--------|
E|3333333-|5555555-|--------|0000002-|3333333-|5555555-|77777777|7777777-|

G|--------|--------|--------|--------|--------|--------|--------|--------|
D|--------|--------|--------|--------|--------|--------|--------|--------|
A|--------|--------|2222222-|--------|--------|--------|--------|--------|
E|3333333-|5555555-|--------|0000002-|3333333-|2222222-|55555555|55555555|

Verse
Chorus
Verse

Chorus 2 :
G|--------|--------|--------|--------|--------|--------|--------|--------|
D|--------|--------|--------|--------|--------|--------|--------|--------|
A|--------|--------|2222222-|--------|--------|--------|--------|--------|
E|3333333-|5555555-|--------|0000002-|3333333-|5555555-|77777777|7777777-|

G|--------|--------|--------|--------|--------|--------|--------|------2-|
D|--------|--------|--------|--------|--------|--------|--------|-2--4---|
A|--------|--------|2222222-|--------|--------|--------|2--4--5-|--------|
E|3333333-|5555555-|--------|0000002-|3333333-|5555555-|--------|--------|

Chorus 2
Chorus 2 >

=========================================================================================================================
Legend : > = fade out the volume
=========================================================================================================================

Visit http://www.ilovetabs.com for other tablators and scores for bass guitar.