**************************************
* Eels : That Look You Give That Guy *
**************************************

mesure = 4/4, tempo = 94, subdivision (-) = croche
suggestion de réglages :
    micro : 100% manche
    EQ = 50% bass / 50% mid / 50% treble

Intro :
G|--------|--------|--------|--------|--------|--------|--------|--------|
D|3---2---|1---0--4|5---3---|2--5----|3---2---|1---0--4|5---3---|2--5----|
A|--------|--------|--------|----3---|--------|--------|--------|----3---|
E|--------|--------|--------|--------|--------|--------|--------|--------|

Couplet A :
G|--------|--------|--------|--------|--------|--------|--------|--------|
D|3---2---|1---0--4|5---3---|2--5----|3--32--2|1--10--0|5--53--3|2--2----|
A|--------|--------|--------|----3--3|--------|--------|--------|----3--3|
E|--------|--------|--------|--------|--------|--------|--------|--------|

Refrain A :
G|--------|--------|--------|--------|--------|--------|--------|--------|
D|3--32--2|1--10-04|5--53--3|2--5--5-|3--32--2|1--10-07|5--53--3|2--5--5-|
A|--------|--------|--------|----3--3|--------|--------|--------|----3--3|
E|--------|--------|--------|--------|--------|--------|--------|--------|

Couplet B :
G|--------|--------|--------|--------|--------|--------|--------|--------|
D|3--32--2|1--10--0|5--53--3|2--2----|3--32--2|1--10--0|5--53--3|2--2----|
A|--------|--------|--------|----3--3|--------|--------|--------|----3--3|
E|--------|--------|--------|--------|--------|--------|--------|--------|

Refrain B :
G|--------|--------|--------|--------|--------|--------|--------|--------|
D|3--32--2|1--10-04|5--53--3|2--5--5-|3--32--2|1--10-70|5--53--3|2--5----|
A|--------|--------|--------|----3--3|--------|--------|--------|----3-3-|
E|--------|--------|--------|--------|--------|--------|--------|--------|

Pont A :
G|----2--2|3--32--2|0--0---3|5--55---|----2--2|3--32--2|--------|--------|
D|3--3----|--------|--------|------2-|3--3----|--------|5--53--3|2--2----|
A|--------|--------|----1---|--------|--------|--------|--------|----3-3-|
E|--------|--------|--------|--------|--------|--------|--------|--------|

Couplet C :
G|--------|--------|--------|--------|--------|--------|--------|--------|
D|3---+---|--------|--------|--------|3--32--2|1--10--0|5--53--3|2--2----|
A|--------|--------|--------|--------|--------|--------|--------|----3--3|
E|--------|--------|--------|--------|--------|--------|--------|--------|

Refrain C :
G|--------|--------|--------|--------|--------|--------|--------|--------|
D|3--32--2|1---0-04|5--53--3|2--5---2|3--32--2|1--10-07|5--53--3|2-----5-|
A|--------|--------|--------|----3-3-|--------|--------|--------|---53--3|
E|--------|--------|--------|--------|--------|--------|--------|--------|

Couplet B

Refrain D :
G|--------|--------|--------|--------|--------|--------|--------|--------|
D|3--32---|1---0--0|5--53--3|2--2----|3--32---|1--10-70|5--53--3|2--5----|
A|--------|--------|--------|----3--3|--------|--------|--------|----3-3-|
E|--------|--------|--------|--------|--------|--------|--------|--------|

Pont B :
G|----2--2|3--32--2|0--0---3|5--55---|----2--2|3--32--2|--------|--------|
D|3--3----|--------|--------|------2-|3--3----|--------|5--53--3|2--2----|
A|--------|--------|----1---|--------|--------|--------|--------|----3--3|
E|--------|--------|--------|--------|--------|--------|--------|--------|

Finale :
G|--------|--------|--------|--------|--------|--------|--------|--------|
D|3--32--2|1--10-04|5--53--3|2-----5-|3-------|+-------|--------|--------|
A|--------|--------|--------|---53--3|--------|--------|--------|--------|
E|--------|--------|--------|--------|--------|--------|--------|--------|

=========================================================================================================================
Légende : + = étouffer la corde (stopper le son)
=========================================================================================================================

Visitez http://www.ilovetabs.com pour d'autres tablatures et partitions pour guitare basse.